ISO-10303-21;
HEADER;
FILE_DESCRIPTION (( 'STEP AP214' ),
    '1' );
FILE_NAME ('5420539.stp',
    '2016-07-29T11:42:02',
    ( '' ),
    ( '' ),
    'SwSTEP 2.0',
    'SolidWorks 2014',
    '' );
FILE_SCHEMA (( 'AUTOMOTIVE_DESIGN' ));
ENDSEC;

DATA;
#1 = ADVANCED_FACE ( 'NONE', ( #20 ), #55, .T. ) ;
#2 =( NAMED_UNIT ( * ) PLANE_ANGLE_UNIT ( ) SI_UNIT ( $, .RADIAN. ) );
#3 = ADVANCED_BREP_SHAPE_REPRESENTATION ( '5420539', ( #36, #53 ), #70 ) ;
#4 = EDGE_LOOP ( 'NONE', ( #87, #75 ) ) ;
#5 = PRODUCT_DEFINITION_SHAPE ( 'NONE', 'NONE',  #52 ) ;
#6 =( LENGTH_UNIT ( ) NAMED_UNIT ( * ) SI_UNIT ( .MILLI., .METRE. ) );
#7 = PRESENTATION_LAYER_ASSIGNMENT (  '', '', ( #66 ) ) ;
#8 = CARTESIAN_POINT ( 'NONE',  ( 0.0000000000000000000, 2000.000000000000000, 0.0000000000000000000 ) ) ;
#9 = CIRCLE ( 'NONE', #88, 7.999999999999998200 ) ;
#10 = DIRECTION ( 'NONE',  ( 0.0000000000000000000, 1.000000000000000000, 0.0000000000000000000 ) ) ;
#11 = EDGE_LOOP ( 'NONE', ( #27, #124, #37, #23 ) ) ;
#12 = APPLICATION_CONTEXT ( 'automotive_design' ) ;
#13 = UNCERTAINTY_MEASURE_WITH_UNIT (LENGTH_MEASURE( 1.000000000000000100E-005 ), #114, 'distance_accuracy_value', 'NONE');
#14 = SURFACE_SIDE_STYLE ('',( #132 ) ) ;
#15 = CARTESIAN_POINT ( 'NONE',  ( 9.797174393178823700E-016, 8.000000000000007100, 7.999999999999998200 ) ) ;
#16 = APPLICATION_PROTOCOL_DEFINITION ( 'draft international standard', 'automotive_design', 1998, #42 ) ;
#17 = CLOSED_SHELL ( 'NONE', ( #45, #1, #34, #25 ) ) ;
#18 = DIRECTION ( 'NONE',  ( 0.0000000000000000000, 1.000000000000000000, 0.0000000000000000000 ) ) ;
#19 = EDGE_LOOP ( 'NONE', ( #112, #46, #79, #118 ) ) ;
#20 = FACE_OUTER_BOUND ( 'NONE', #19, .T. ) ;
#21 = VERTEX_POINT ( 'NONE', #15 ) ;
#22 = CIRCLE ( 'NONE', #131, 7.999999999999998200 ) ;
#23 = ORIENTED_EDGE ( 'NONE', *, *, #140, .F. ) ;
#24 = SPHERICAL_SURFACE ( 'NONE', #58, 8.000000000000000000 ) ;
#25 = ADVANCED_FACE ( 'NONE', ( #94 ), #29, .T. ) ;
#26 = SURFACE_STYLE_USAGE ( .BOTH. , #68 ) ;
#27 = ORIENTED_EDGE ( 'NONE', *, *, #136, .T. ) ;
#28 = VERTEX_POINT ( 'NONE', #126 ) ;
#29 = SPHERICAL_SURFACE ( 'NONE', #101, 8.000000000000000000 ) ;
#30 = ORIENTED_EDGE ( 'NONE', *, *, #139, .F. ) ;
#31 = VECTOR ( 'NONE', #51, 1000.000000000000000 ) ;
#32 = VERTEX_POINT ( 'NONE', #104 ) ;
#33 = CIRCLE ( 'NONE', #133, 7.999999999999998200 ) ;
#34 = ADVANCED_FACE ( 'NONE', ( #127 ), #24, .T. ) ;
#35 = DIRECTION ( 'NONE',  ( 1.000000000000000000, 0.0000000000000000000, 0.0000000000000000000 ) ) ;
#36 = MANIFOLD_SOLID_BREP ( 'Fillet1', #17 ) ;
#37 = ORIENTED_EDGE ( 'NONE', *, *, #139, .T. ) ;
#38 = EDGE_LOOP ( 'NONE', ( #44, #30 ) ) ;
#39 =( NAMED_UNIT ( * ) PLANE_ANGLE_UNIT ( ) SI_UNIT ( $, .RADIAN. ) );
#40 = EDGE_CURVE ( 'NONE', #28, #21, #134, .T. ) ;
#41 = AXIS2_PLACEMENT_3D ( 'NONE', #72, #76, #74 ) ;
#42 = APPLICATION_CONTEXT ( 'automotive_design' ) ;
#43 = UNCERTAINTY_MEASURE_WITH_UNIT (LENGTH_MEASURE( 1.000000000000000100E-005 ), #6, 'distance_accuracy_value', 'NONE');
#44 = ORIENTED_EDGE ( 'NONE', *, *, #62, .F. ) ;
#45 = ADVANCED_FACE ( 'NONE', ( #69 ), #137, .T. ) ;
#46 = ORIENTED_EDGE ( 'NONE', *, *, #129, .T. ) ;
#47 = VECTOR ( 'NONE', #83, 1000.000000000000000 ) ;
#48 = DIRECTION ( 'NONE',  ( 0.0000000000000000000, 0.0000000000000000000, -1.000000000000000000 ) ) ;
#49 = PRODUCT_RELATED_PRODUCT_CATEGORY ( 'part', '', ( #128 ) ) ;
#50 = PRODUCT_DEFINITION_FORMATION_WITH_SPECIFIED_SOURCE ( 'ANY', '', #128, .NOT_KNOWN. ) ;
#51 = DIRECTION ( 'NONE',  ( -0.0000000000000000000, -1.000000000000000000, -0.0000000000000000000 ) ) ;
#52 = PRODUCT_DEFINITION ( 'UNKNOWN', '', #50, #116 ) ;
#53 = AXIS2_PLACEMENT_3D ( 'NONE', #106, #71, #35 ) ;
#54 = SURFACE_STYLE_FILL_AREA ( #130 ) ;
#55 = CYLINDRICAL_SURFACE ( 'NONE', #96, 7.999999999999998200 ) ;
#56 =( GEOMETRIC_REPRESENTATION_CONTEXT ( 3 ) GLOBAL_UNCERTAINTY_ASSIGNED_CONTEXT ( ( #43 ) ) GLOBAL_UNIT_ASSIGNED_CONTEXT ( ( #6, #39, #59 ) ) REPRESENTATION_CONTEXT ( 'NONE', 'WORKASPACE' ) );
#57 = MECHANICAL_DESIGN_GEOMETRIC_PRESENTATION_REPRESENTATION (  '', ( #66 ), #56 ) ;
#58 = AXIS2_PLACEMENT_3D ( 'NONE', #95, #10, #91 ) ;
#59 =( NAMED_UNIT ( * ) SI_UNIT ( $, .STERADIAN. ) SOLID_ANGLE_UNIT ( ) );
#60 = APPLICATION_PROTOCOL_DEFINITION ( 'draft international standard', 'automotive_design', 1998, #12 ) ;
#61 = CARTESIAN_POINT ( 'NONE',  ( 0.0000000000000000000, 1992.000000000000000, 0.0000000000000000000 ) ) ;
#62 = EDGE_CURVE ( 'NONE', #32, #21, #63, .T. ) ;
#63 = CIRCLE ( 'NONE', #41, 7.999999999999998200 ) ;
#64 = DIRECTION ( 'NONE',  ( 0.0000000000000000000, 0.0000000000000000000, -1.000000000000000000 ) ) ;
#65 = SHAPE_DEFINITION_REPRESENTATION ( #5, #3 ) ;
#66 = STYLED_ITEM ( 'NONE', ( #115 ), #3 ) ;
#67 = DIRECTION ( 'NONE',  ( -0.0000000000000000000, -1.000000000000000000, -0.0000000000000000000 ) ) ;
#68 = SURFACE_SIDE_STYLE ('',( #54 ) ) ;
#69 = FACE_OUTER_BOUND ( 'NONE', #11, .T. ) ;
#70 =( GEOMETRIC_REPRESENTATION_CONTEXT ( 3 ) GLOBAL_UNCERTAINTY_ASSIGNED_CONTEXT ( ( #123 ) ) GLOBAL_UNIT_ASSIGNED_CONTEXT ( ( #120, #2, #98 ) ) REPRESENTATION_CONTEXT ( 'NONE', 'WORKASPACE' ) );
#71 = DIRECTION ( 'NONE',  ( 0.0000000000000000000, 0.0000000000000000000, 1.000000000000000000 ) ) ;
#72 = CARTESIAN_POINT ( 'NONE',  ( 0.0000000000000000000, 8.000000000000007100, 0.0000000000000000000 ) ) ;
#73 =( GEOMETRIC_REPRESENTATION_CONTEXT ( 3 ) GLOBAL_UNCERTAINTY_ASSIGNED_CONTEXT ( ( #13 ) ) GLOBAL_UNIT_ASSIGNED_CONTEXT ( ( #114, #86, #85 ) ) REPRESENTATION_CONTEXT ( 'NONE', 'WORKASPACE' ) );
#74 = DIRECTION ( 'NONE',  ( 0.0000000000000000000, 0.0000000000000000000, -1.000000000000000000 ) ) ;
#75 = ORIENTED_EDGE ( 'NONE', *, *, #129, .F. ) ;
#76 = DIRECTION ( 'NONE',  ( 0.0000000000000000000, 1.000000000000000000, 0.0000000000000000000 ) ) ;
#77 = CARTESIAN_POINT ( 'NONE',  ( 0.0000000000000000000, 2000.000000000000000, -7.999999999999998200 ) ) ;
#78 = CARTESIAN_POINT ( 'NONE',  ( 0.0000000000000000000, 1992.000000000000000, -7.999999999999998200 ) ) ;
#79 = ORIENTED_EDGE ( 'NONE', *, *, #140, .T. ) ;
#80 = VERTEX_POINT ( 'NONE', #78 ) ;
#81 = DIRECTION ( 'NONE',  ( -0.0000000000000000000, -1.000000000000000000, -0.0000000000000000000 ) ) ;
#82 = DIRECTION ( 'NONE',  ( 0.0000000000000000000, 0.0000000000000000000, -1.000000000000000000 ) ) ;
#83 = DIRECTION ( 'NONE',  ( -0.0000000000000000000, -1.000000000000000000, -0.0000000000000000000 ) ) ;
#84 = CARTESIAN_POINT ( 'NONE',  ( 9.797174393178823700E-016, 2000.000000000000000, 7.999999999999998200 ) ) ;
#85 =( NAMED_UNIT ( * ) SI_UNIT ( $, .STERADIAN. ) SOLID_ANGLE_UNIT ( ) );
#86 =( NAMED_UNIT ( * ) PLANE_ANGLE_UNIT ( ) SI_UNIT ( $, .RADIAN. ) );
#87 = ORIENTED_EDGE ( 'NONE', *, *, #136, .F. ) ;
#88 = AXIS2_PLACEMENT_3D ( 'NONE', #61, #67, #64 ) ;
#89 = MECHANICAL_DESIGN_GEOMETRIC_PRESENTATION_REPRESENTATION (  '', ( #122 ), #73 ) ;
#90 = DIRECTION ( 'NONE',  ( 1.000000000000000000, 0.0000000000000000000, 0.0000000000000000000 ) ) ;
#91 = DIRECTION ( 'NONE',  ( 1.000000000000000000, 0.0000000000000000000, 0.0000000000000000000 ) ) ;
#92 = DIRECTION ( 'NONE',  ( -0.0000000000000000000, -1.000000000000000000, -0.0000000000000000000 ) ) ;
#93 = CARTESIAN_POINT ( 'NONE',  ( 0.0000000000000000000, 1992.000000000000000, 0.0000000000000000000 ) ) ;
#94 = FACE_OUTER_BOUND ( 'NONE', #4, .T. ) ;
#95 = CARTESIAN_POINT ( 'NONE',  ( 0.0000000000000000000, 8.000000000000007100, 0.0000000000000000000 ) ) ;
#96 = AXIS2_PLACEMENT_3D ( 'NONE', #8, #92, #48 ) ;
#97 = FILL_AREA_STYLE_COLOUR ( '', #125 ) ;
#98 =( NAMED_UNIT ( * ) SI_UNIT ( $, .STERADIAN. ) SOLID_ANGLE_UNIT ( ) );
#99 = PRESENTATION_LAYER_ASSIGNMENT (  '', '', ( #122 ) ) ;
#100 = CARTESIAN_POINT ( 'NONE',  ( 0.0000000000000000000, 8.000000000000007100, 0.0000000000000000000 ) ) ;
#101 = AXIS2_PLACEMENT_3D ( 'NONE', #93, #18, #90 ) ;
#102 = CARTESIAN_POINT ( 'NONE',  ( 0.0000000000000000000, 1992.000000000000000, 0.0000000000000000000 ) ) ;
#103 = DIRECTION ( 'NONE',  ( 0.0000000000000000000, 1.000000000000000000, 0.0000000000000000000 ) ) ;
#104 = CARTESIAN_POINT ( 'NONE',  ( 0.0000000000000000000, 8.000000000000007100, -7.999999999999998200 ) ) ;
#105 = DIRECTION ( 'NONE',  ( 0.0000000000000000000, 0.0000000000000000000, -1.000000000000000000 ) ) ;
#106 = CARTESIAN_POINT ( 'NONE',  ( 0.0000000000000000000, 0.0000000000000000000, 0.0000000000000000000 ) ) ;
#107 = DIRECTION ( 'NONE',  ( 0.0000000000000000000, 0.0000000000000000000, -1.000000000000000000 ) ) ;
#108 = FILL_AREA_STYLE ('',( #111 ) ) ;
#109 = SURFACE_STYLE_USAGE ( .BOTH. , #14 ) ;
#110 = PRODUCT_CONTEXT ( 'NONE', #12, 'mechanical' ) ;
#111 = FILL_AREA_STYLE_COLOUR ( '', #119 ) ;
#112 = ORIENTED_EDGE ( 'NONE', *, *, #40, .F. ) ;
#113 = CARTESIAN_POINT ( 'NONE',  ( 0.0000000000000000000, 2000.000000000000000, 0.0000000000000000000 ) ) ;
#114 =( LENGTH_UNIT ( ) NAMED_UNIT ( * ) SI_UNIT ( .MILLI., .METRE. ) );
#115 = PRESENTATION_STYLE_ASSIGNMENT (( #109 ) ) ;
#116 = PRODUCT_DEFINITION_CONTEXT ( 'detailed design', #42, 'design' ) ;
#117 = PRESENTATION_STYLE_ASSIGNMENT (( #26 ) ) ;
#118 = ORIENTED_EDGE ( 'NONE', *, *, #62, .T. ) ;
#119 = COLOUR_RGB ( '',0.7921568627450980000, 0.8196078431372548800, 0.9333333333333333500 ) ;
#120 =( LENGTH_UNIT ( ) NAMED_UNIT ( * ) SI_UNIT ( .MILLI., .METRE. ) );
#121 = LINE ( 'NONE', #77, #31 ) ;
#122 = STYLED_ITEM ( 'NONE', ( #117 ), #36 ) ;
#123 = UNCERTAINTY_MEASURE_WITH_UNIT (LENGTH_MEASURE( 1.000000000000000100E-005 ), #120, 'distance_accuracy_value', 'NONE');
#124 = ORIENTED_EDGE ( 'NONE', *, *, #40, .T. ) ;
#125 = COLOUR_RGB ( '',0.7921568627450980000, 0.8196078431372548800, 0.9333333333333333500 ) ;
#126 = CARTESIAN_POINT ( 'NONE',  ( 9.797174393178823700E-016, 1992.000000000000000, 7.999999999999998200 ) ) ;
#127 = FACE_OUTER_BOUND ( 'NONE', #38, .T. ) ;
#128 = PRODUCT ( '5420539', '5420539', '', ( #110 ) ) ;
#129 = EDGE_CURVE ( 'NONE', #28, #80, #9, .T. ) ;
#130 = FILL_AREA_STYLE ('',( #97 ) ) ;
#131 = AXIS2_PLACEMENT_3D ( 'NONE', #100, #103, #105 ) ;
#132 = SURFACE_STYLE_FILL_AREA ( #108 ) ;
#133 = AXIS2_PLACEMENT_3D ( 'NONE', #102, #138, #107 ) ;
#134 = LINE ( 'NONE', #84, #47 ) ;
#135 = AXIS2_PLACEMENT_3D ( 'NONE', #113, #81, #82 ) ;
#136 = EDGE_CURVE ( 'NONE', #80, #28, #33, .T. ) ;
#137 = CYLINDRICAL_SURFACE ( 'NONE', #135, 7.999999999999998200 ) ;
#138 = DIRECTION ( 'NONE',  ( -0.0000000000000000000, -1.000000000000000000, -0.0000000000000000000 ) ) ;
#139 = EDGE_CURVE ( 'NONE', #21, #32, #22, .T. ) ;
#140 = EDGE_CURVE ( 'NONE', #80, #32, #121, .T. ) ;
ENDSEC;
END-ISO-10303-21;
