ISO-10303-21;
HEADER;
FILE_DESCRIPTION (( 'STEP AP214' ),
    '1' );
FILE_NAME ('2046586.STEP',
    '2025-01-24T14:41:02',
    ( '' ),
    ( '' ),
    'SwSTEP 2.0',
    'SolidWorks 2024',
    '' );
FILE_SCHEMA (( 'AUTOMOTIVE_DESIGN' ));
ENDSEC;

DATA;
#1 = AXIS2_PLACEMENT_3D ( 'NONE', #68, #39, #144 ) ;
#2 = FACE_OUTER_BOUND ( 'NONE', #55, .T. ) ;
#3 = FILL_AREA_STYLE ('',( #31 ) ) ;
#4 = VERTEX_POINT ( 'NONE', #25 ) ;
#5 = CIRCLE ( 'NONE', #90, 21.84999999999999432 ) ;
#6 = DIRECTION ( 'NONE',  ( -1.000000000000000000, -0.000000000000000000, -0.000000000000000000 ) ) ;
#7 = DIRECTION ( 'NONE',  ( -1.000000000000000000, -0.000000000000000000, -0.000000000000000000 ) ) ;
#8 = DIRECTION ( 'NONE',  ( -1.000000000000000000, -0.000000000000000000, -0.000000000000000000 ) ) ;
#9 = CIRCLE ( 'NONE', #157, 20.35000000000000142 ) ;
#10 = EDGE_CURVE ( 'NONE', #172, #131, #147, .T. ) ;
#11 = CARTESIAN_POINT ( 'NONE',  ( 37.50000000000000000, 21.84999999999999432, 0.000000000000000000 ) ) ;
#12 = EDGE_LOOP ( 'NONE', ( #26, #132 ) ) ;
#13 = SURFACE_SIDE_STYLE ('',( #152 ) ) ;
#14 = ADVANCED_FACE ( 'NONE', ( #89 ), #40, .F. ) ;
#15 = CIRCLE ( 'NONE', #177, 21.84999999999999432 ) ;
#16 = CYLINDRICAL_SURFACE ( 'NONE', #117, 21.84999999999999787 ) ;
#17 = FACE_OUTER_BOUND ( 'NONE', #102, .T. ) ;
#18 = CARTESIAN_POINT ( 'NONE',  ( 37.50000000000000000, 0.000000000000000000, 0.000000000000000000 ) ) ;
#19 = CIRCLE ( 'NONE', #80, 20.35000000000000142 ) ;
#20 = CYLINDRICAL_SURFACE ( 'NONE', #171, 21.84999999999999787 ) ;
#21 = CARTESIAN_POINT ( 'NONE',  ( 0.000000000000000000, 0.000000000000000000, 0.000000000000000000 ) ) ;
#22 = VECTOR ( 'NONE', #175, 1000.000000000000000 ) ;
#23 = AXIS2_PLACEMENT_3D ( 'NONE', #11, #107, #71 ) ;
#24 = ORIENTED_EDGE ( 'NONE', *, *, #138, .T. ) ;
#25 = CARTESIAN_POINT ( 'NONE',  ( 37.50000000000000000, 0.000000000000000000, 20.35000000000000142 ) ) ;
#26 = ORIENTED_EDGE ( 'NONE', *, *, #49, .F. ) ;
#27 = CIRCLE ( 'NONE', #96, 20.35000000000000142 ) ;
#28 = LINE ( 'NONE', #121, #74 ) ;
#29 = DIRECTION ( 'NONE',  ( 0.000000000000000000, 0.000000000000000000, 1.000000000000000000 ) ) ;
#30 = ADVANCED_FACE ( 'NONE', ( #104 ), #91, .F. ) ;
#31 = FILL_AREA_STYLE_COLOUR ( '', #37 ) ;
#32 = PRODUCT_DEFINITION_FORMATION_WITH_SPECIFIED_SOURCE ( 'ANY', '', #76, .NOT_KNOWN. ) ;
#33 = DIRECTION ( 'NONE',  ( 0.000000000000000000, 0.000000000000000000, 1.000000000000000000 ) ) ;
#34 = EDGE_CURVE ( 'NONE', #131, #115, #15, .T. ) ;
#35 = APPLICATION_CONTEXT ( 'automotive_design' ) ;
#36 = APPLICATION_PROTOCOL_DEFINITION ( 'draft international standard', 'automotive_design', 1998, #84 ) ;
#37 = COLOUR_RGB ( '',0.7921568627450980005, 0.8196078431372548767, 0.9333333333333333481 ) ;
#38 = ORIENTED_EDGE ( 'NONE', *, *, #64, .F. ) ;
#39 = DIRECTION ( 'NONE',  ( -1.000000000000000000, -0.000000000000000000, -0.000000000000000000 ) ) ;
#40 = CYLINDRICAL_SURFACE ( 'NONE', #1, 20.35000000000000142 ) ;
#41 = STYLED_ITEM ( 'NONE', ( #165 ), #161 ) ;
#42 = ORIENTED_EDGE ( 'NONE', *, *, #67, .F. ) ;
#43 = CARTESIAN_POINT ( 'NONE',  ( 37.50000000000000000, 0.000000000000000000, 21.84999999999999432 ) ) ;
#44 = CARTESIAN_POINT ( 'NONE',  ( -37.50000000000000000, 2.675853256136966379E-15, -21.84999999999999432 ) ) ;
#45 =( LENGTH_UNIT ( ) NAMED_UNIT ( * ) SI_UNIT ( .MILLI., .METRE. ) );
#46 = DIRECTION ( 'NONE',  ( 0.000000000000000000, 0.000000000000000000, 1.000000000000000000 ) ) ;
#47 = FACE_BOUND ( 'NONE', #12, .T. ) ;
#48 = CIRCLE ( 'NONE', #114, 21.84999999999999432 ) ;
#49 = EDGE_CURVE ( 'NONE', #66, #53, #19, .T. ) ;
#50 = ORIENTED_EDGE ( 'NONE', *, *, #10, .F. ) ;
#51 = ORIENTED_EDGE ( 'NONE', *, *, #129, .T. ) ;
#52 = EDGE_CURVE ( 'NONE', #194, #115, #28, .T. ) ;
#53 = VERTEX_POINT ( 'NONE', #93 ) ;
#54 = CARTESIAN_POINT ( 'NONE',  ( -17.47792894757627025, 0.000000000000000000, 0.000000000000000000 ) ) ;
#55 = EDGE_LOOP ( 'NONE', ( #50, #186, #174, #160 ) ) ;
#56 = CARTESIAN_POINT ( 'NONE',  ( 37.50000000000000000, 0.000000000000000000, 0.000000000000000000 ) ) ;
#57 = ADVANCED_FACE ( 'NONE', ( #58, #191 ), #178, .F. ) ;
#58 = FACE_OUTER_BOUND ( 'NONE', #143, .T. ) ;
#59 = AXIS2_PLACEMENT_3D ( 'NONE', #183, #110, #151 ) ;
#60 =( LENGTH_UNIT ( ) NAMED_UNIT ( * ) SI_UNIT ( .MILLI., .METRE. ) );
#61 = CIRCLE ( 'NONE', #192, 21.84999999999999432 ) ;
#62 = DIRECTION ( 'NONE',  ( -1.000000000000000000, -0.000000000000000000, -0.000000000000000000 ) ) ;
#63 = DIRECTION ( 'NONE',  ( -1.000000000000000000, -0.000000000000000000, -0.000000000000000000 ) ) ;
#64 = EDGE_CURVE ( 'NONE', #4, #66, #86, .T. ) ;
#65 = ORIENTED_EDGE ( 'NONE', *, *, #87, .T. ) ;
#66 = VERTEX_POINT ( 'NONE', #195 ) ;
#67 = EDGE_CURVE ( 'NONE', #194, #172, #5, .T. ) ;
#68 = CARTESIAN_POINT ( 'NONE',  ( -17.47792894757627025, 0.000000000000000000, 0.000000000000000000 ) ) ;
#69 = DIRECTION ( 'NONE',  ( 0.000000000000000000, 0.000000000000000000, 1.000000000000000000 ) ) ;
#70 = ORIENTED_EDGE ( 'NONE', *, *, #64, .T. ) ;
#71 = DIRECTION ( 'NONE',  ( -0.000000000000000000, 0.000000000000000000, 1.000000000000000000 ) ) ;
#72 = ORIENTED_EDGE ( 'NONE', *, *, #129, .F. ) ;
#73 = DIRECTION ( 'NONE',  ( -1.000000000000000000, -0.000000000000000000, -0.000000000000000000 ) ) ;
#74 = VECTOR ( 'NONE', #8, 1000.000000000000000 ) ;
#75 =( NAMED_UNIT ( * ) SI_UNIT ( $, .STERADIAN. ) SOLID_ANGLE_UNIT ( ) );
#76 = PRODUCT ( '2046586', '2046586', '', ( #155 ) ) ;
#77 = DIRECTION ( 'NONE',  ( -1.000000000000000000, -0.000000000000000000, -0.000000000000000000 ) ) ;
#78 = UNCERTAINTY_MEASURE_WITH_UNIT (LENGTH_MEASURE( 1.000000000000000082E-05 ), #45, 'distance_accuracy_value', 'NONE');
#79 = CARTESIAN_POINT ( 'NONE',  ( 37.50000000000000000, 0.000000000000000000, 0.000000000000000000 ) ) ;
#80 = AXIS2_PLACEMENT_3D ( 'NONE', #106, #190, #69 ) ;
#81 = DIRECTION ( 'NONE',  ( -1.000000000000000000, -0.000000000000000000, -0.000000000000000000 ) ) ;
#82 = CIRCLE ( 'NONE', #154, 20.35000000000000142 ) ;
#83 = EDGE_CURVE ( 'NONE', #172, #194, #48, .T. ) ;
#84 = APPLICATION_CONTEXT ( 'automotive_design' ) ;
#85 = EDGE_LOOP ( 'NONE', ( #65, #163 ) ) ;
#86 = LINE ( 'NONE', #134, #145 ) ;
#87 = EDGE_CURVE ( 'NONE', #115, #131, #61, .T. ) ;
#88 = EDGE_LOOP ( 'NONE', ( #141, #72, #70, #127 ) ) ;
#89 = FACE_OUTER_BOUND ( 'NONE', #173, .T. ) ;
#90 = AXIS2_PLACEMENT_3D ( 'NONE', #56, #6, #168 ) ;
#91 = CYLINDRICAL_SURFACE ( 'NONE', #111, 20.35000000000000142 ) ;
#92 = EDGE_CURVE ( 'NONE', #119, #53, #108, .T. ) ;
#93 = CARTESIAN_POINT ( 'NONE',  ( -37.50000000000000000, 2.492156236264863657E-15, -20.35000000000000142 ) ) ;
#94 = DIRECTION ( 'NONE',  ( 0.000000000000000000, 0.000000000000000000, 1.000000000000000000 ) ) ;
#95 = CARTESIAN_POINT ( 'NONE',  ( 37.50000000000000000, 2.675853256136966379E-15, -21.84999999999999432 ) ) ;
#96 = AXIS2_PLACEMENT_3D ( 'NONE', #79, #63, #46 ) ;
#97 = CARTESIAN_POINT ( 'NONE',  ( 37.50000000000000000, 0.000000000000000000, 0.000000000000000000 ) ) ;
#98 = CARTESIAN_POINT ( 'NONE',  ( -37.50000000000000000, 0.000000000000000000, 21.84999999999999432 ) ) ;
#99 = APPLICATION_PROTOCOL_DEFINITION ( 'draft international standard', 'automotive_design', 1998, #35 ) ;
#100 = PRODUCT_DEFINITION_CONTEXT ( 'detailed design', #84, 'design' ) ;
#101 = MECHANICAL_DESIGN_GEOMETRIC_PRESENTATION_REPRESENTATION (  '', ( #41 ), #149 ) ;
#102 = EDGE_LOOP ( 'NONE', ( #156, #158, #142, #120 ) ) ;
#103 = DIRECTION ( 'NONE',  ( 0.000000000000000000, 0.000000000000000000, 1.000000000000000000 ) ) ;
#104 = FACE_OUTER_BOUND ( 'NONE', #88, .T. ) ;
#105 =( GEOMETRIC_REPRESENTATION_CONTEXT ( 3 ) GLOBAL_UNCERTAINTY_ASSIGNED_CONTEXT ( ( #148 ) ) GLOBAL_UNIT_ASSIGNED_CONTEXT ( ( #60, #185, #113 ) ) REPRESENTATION_CONTEXT ( 'NONE', 'WORKASPACE' ) );
#106 = CARTESIAN_POINT ( 'NONE',  ( -37.50000000000000000, 0.000000000000000000, 0.000000000000000000 ) ) ;
#107 = DIRECTION ( 'NONE',  ( -1.000000000000000000, 0.000000000000000000, -0.000000000000000000 ) ) ;
#108 = LINE ( 'NONE', #137, #162 ) ;
#109 = DIRECTION ( 'NONE',  ( 0.000000000000000000, 0.000000000000000000, 1.000000000000000000 ) ) ;
#110 = DIRECTION ( 'NONE',  ( 1.000000000000000000, 0.000000000000000000, 0.000000000000000000 ) ) ;
#111 = AXIS2_PLACEMENT_3D ( 'NONE', #54, #7, #135 ) ;
#112 = DIRECTION ( 'NONE',  ( 1.000000000000000000, 0.000000000000000000, 0.000000000000000000 ) ) ;
#113 =( NAMED_UNIT ( * ) SI_UNIT ( $, .STERADIAN. ) SOLID_ANGLE_UNIT ( ) );
#114 = AXIS2_PLACEMENT_3D ( 'NONE', #18, #181, #179 ) ;
#115 = VERTEX_POINT ( 'NONE', #98 ) ;
#116 = DIRECTION ( 'NONE',  ( -1.000000000000000000, -0.000000000000000000, -0.000000000000000000 ) ) ;
#117 = AXIS2_PLACEMENT_3D ( 'NONE', #169, #77, #29 ) ;
#118 = DIRECTION ( 'NONE',  ( -1.000000000000000000, -0.000000000000000000, -0.000000000000000000 ) ) ;
#119 = VERTEX_POINT ( 'NONE', #182 ) ;
#120 = ORIENTED_EDGE ( 'NONE', *, *, #52, .F. ) ;
#121 = CARTESIAN_POINT ( 'NONE',  ( -17.47792894757627025, 0.000000000000000000, 21.84999999999999787 ) ) ;
#122 = FACE_OUTER_BOUND ( 'NONE', #85, .T. ) ;
#123 = PRODUCT_DEFINITION_SHAPE ( 'NONE', 'NONE',  #126 ) ;
#124 = CARTESIAN_POINT ( 'NONE',  ( -17.47792894757627025, 0.000000000000000000, 0.000000000000000000 ) ) ;
#125 = PLANE ( 'NONE',  #59 ) ;
#126 = PRODUCT_DEFINITION ( 'UNKNOWN', '', #32, #100 ) ;
#127 = ORIENTED_EDGE ( 'NONE', *, *, #49, .T. ) ;
#128 = SHAPE_DEFINITION_REPRESENTATION ( #123, #193 ) ;
#129 = EDGE_CURVE ( 'NONE', #4, #119, #82, .T. ) ;
#130 = PRESENTATION_LAYER_ASSIGNMENT (  '', '', ( #41 ) ) ;
#131 = VERTEX_POINT ( 'NONE', #44 ) ;
#132 = ORIENTED_EDGE ( 'NONE', *, *, #138, .F. ) ;
#133 = ORIENTED_EDGE ( 'NONE', *, *, #83, .F. ) ;
#134 = CARTESIAN_POINT ( 'NONE',  ( -17.47792894757627025, 0.000000000000000000, 20.35000000000000142 ) ) ;
#135 = DIRECTION ( 'NONE',  ( 0.000000000000000000, 0.000000000000000000, 1.000000000000000000 ) ) ;
#136 =( NAMED_UNIT ( * ) PLANE_ANGLE_UNIT ( ) SI_UNIT ( $, .RADIAN. ) );
#137 = CARTESIAN_POINT ( 'NONE',  ( -17.47792894757627025, 2.492156236264863657E-15, -20.35000000000000142 ) ) ;
#138 = EDGE_CURVE ( 'NONE', #53, #66, #9, .T. ) ;
#139 = ORIENTED_EDGE ( 'NONE', *, *, #140, .T. ) ;
#140 = EDGE_CURVE ( 'NONE', #119, #4, #27, .T. ) ;
#141 = ORIENTED_EDGE ( 'NONE', *, *, #92, .F. ) ;
#142 = ORIENTED_EDGE ( 'NONE', *, *, #87, .F. ) ;
#143 = EDGE_LOOP ( 'NONE', ( #42, #133 ) ) ;
#144 = DIRECTION ( 'NONE',  ( 0.000000000000000000, 0.000000000000000000, 1.000000000000000000 ) ) ;
#145 = VECTOR ( 'NONE', #116, 1000.000000000000000 ) ;
#146 = CARTESIAN_POINT ( 'NONE',  ( -37.50000000000000000, 0.000000000000000000, 0.000000000000000000 ) ) ;
#147 = LINE ( 'NONE', #164, #22 ) ;
#148 = UNCERTAINTY_MEASURE_WITH_UNIT (LENGTH_MEASURE( 1.000000000000000082E-05 ), #60, 'distance_accuracy_value', 'NONE');
#149 =( GEOMETRIC_REPRESENTATION_CONTEXT ( 3 ) GLOBAL_UNCERTAINTY_ASSIGNED_CONTEXT ( ( #78 ) ) GLOBAL_UNIT_ASSIGNED_CONTEXT ( ( #45, #136, #75 ) ) REPRESENTATION_CONTEXT ( 'NONE', 'WORKASPACE' ) );
#150 = DIRECTION ( 'NONE',  ( -1.000000000000000000, -0.000000000000000000, -0.000000000000000000 ) ) ;
#151 = DIRECTION ( 'NONE',  ( 0.000000000000000000, 0.000000000000000000, -1.000000000000000000 ) ) ;
#152 = SURFACE_STYLE_FILL_AREA ( #3 ) ;
#153 = DIRECTION ( 'NONE',  ( 0.000000000000000000, 0.000000000000000000, 1.000000000000000000 ) ) ;
#154 = AXIS2_PLACEMENT_3D ( 'NONE', #97, #73, #33 ) ;
#155 = PRODUCT_CONTEXT ( 'NONE', #35, 'mechanical' ) ;
#156 = ORIENTED_EDGE ( 'NONE', *, *, #67, .T. ) ;
#157 = AXIS2_PLACEMENT_3D ( 'NONE', #198, #150, #153 ) ;
#158 = ORIENTED_EDGE ( 'NONE', *, *, #10, .T. ) ;
#159 = ADVANCED_FACE ( 'NONE', ( #2 ), #20, .T. ) ;
#160 = ORIENTED_EDGE ( 'NONE', *, *, #34, .F. ) ;
#161 = MANIFOLD_SOLID_BREP ( 'DeleteFace2', #166 ) ;
#162 = VECTOR ( 'NONE', #81, 1000.000000000000000 ) ;
#163 = ORIENTED_EDGE ( 'NONE', *, *, #34, .T. ) ;
#164 = CARTESIAN_POINT ( 'NONE',  ( -17.47792894757627025, 2.675853256136966379E-15, -21.84999999999999787 ) ) ;
#165 = PRESENTATION_STYLE_ASSIGNMENT (( #167 ) ) ;
#166 = CLOSED_SHELL ( 'NONE', ( #196, #14, #176, #30, #57, #159 ) ) ;
#167 = SURFACE_STYLE_USAGE ( .BOTH. , #13 ) ;
#168 = DIRECTION ( 'NONE',  ( 0.000000000000000000, 0.000000000000000000, 1.000000000000000000 ) ) ;
#169 = CARTESIAN_POINT ( 'NONE',  ( -17.47792894757627025, 0.000000000000000000, 0.000000000000000000 ) ) ;
#170 = DIRECTION ( 'NONE',  ( 0.000000000000000000, 0.000000000000000000, 1.000000000000000000 ) ) ;
#171 = AXIS2_PLACEMENT_3D ( 'NONE', #124, #180, #109 ) ;
#172 = VERTEX_POINT ( 'NONE', #95 ) ;
#173 = EDGE_LOOP ( 'NONE', ( #189, #187, #24, #38 ) ) ;
#174 = ORIENTED_EDGE ( 'NONE', *, *, #52, .T. ) ;
#175 = DIRECTION ( 'NONE',  ( -1.000000000000000000, -0.000000000000000000, -0.000000000000000000 ) ) ;
#176 = ADVANCED_FACE ( 'NONE', ( #47, #122 ), #125, .F. ) ;
#177 = AXIS2_PLACEMENT_3D ( 'NONE', #146, #118, #103 ) ;
#178 = PLANE ( 'NONE',  #23 ) ;
#179 = DIRECTION ( 'NONE',  ( 0.000000000000000000, 0.000000000000000000, 1.000000000000000000 ) ) ;
#180 = DIRECTION ( 'NONE',  ( -1.000000000000000000, -0.000000000000000000, -0.000000000000000000 ) ) ;
#181 = DIRECTION ( 'NONE',  ( -1.000000000000000000, -0.000000000000000000, -0.000000000000000000 ) ) ;
#182 = CARTESIAN_POINT ( 'NONE',  ( 37.50000000000000000, 2.492156236264863657E-15, -20.35000000000000142 ) ) ;
#183 = CARTESIAN_POINT ( 'NONE',  ( -37.50000000000000000, 21.84999999999999432, 0.000000000000000000 ) ) ;
#184 = AXIS2_PLACEMENT_3D ( 'NONE', #21, #170, #112 ) ;
#185 =( NAMED_UNIT ( * ) PLANE_ANGLE_UNIT ( ) SI_UNIT ( $, .RADIAN. ) );
#186 = ORIENTED_EDGE ( 'NONE', *, *, #83, .T. ) ;
#187 = ORIENTED_EDGE ( 'NONE', *, *, #92, .T. ) ;
#188 = PRODUCT_RELATED_PRODUCT_CATEGORY ( 'part', '', ( #76 ) ) ;
#189 = ORIENTED_EDGE ( 'NONE', *, *, #140, .F. ) ;
#190 = DIRECTION ( 'NONE',  ( -1.000000000000000000, -0.000000000000000000, -0.000000000000000000 ) ) ;
#191 = FACE_BOUND ( 'NONE', #197, .T. ) ;
#192 = AXIS2_PLACEMENT_3D ( 'NONE', #199, #62, #94 ) ;
#193 = ADVANCED_BREP_SHAPE_REPRESENTATION ( '2046586', ( #161, #184 ), #105 ) ;
#194 = VERTEX_POINT ( 'NONE', #43 ) ;
#195 = CARTESIAN_POINT ( 'NONE',  ( -37.50000000000000000, 0.000000000000000000, 20.35000000000000142 ) ) ;
#196 = ADVANCED_FACE ( 'NONE', ( #17 ), #16, .T. ) ;
#197 = EDGE_LOOP ( 'NONE', ( #51, #139 ) ) ;
#198 = CARTESIAN_POINT ( 'NONE',  ( -37.50000000000000000, 0.000000000000000000, 0.000000000000000000 ) ) ;
#199 = CARTESIAN_POINT ( 'NONE',  ( -37.50000000000000000, 0.000000000000000000, 0.000000000000000000 ) ) ;
ENDSEC;
END-ISO-10303-21;
