ISO-10303-21;
HEADER;
FILE_DESCRIPTION (( 'STEP AP214' ),
    '1' );
FILE_NAME ('2046522.STEP',
    '2025-01-24T14:47:55',
    ( '' ),
    ( '' ),
    'SwSTEP 2.0',
    'SolidWorks 2024',
    '' );
FILE_SCHEMA (( 'AUTOMOTIVE_DESIGN' ));
ENDSEC;

DATA;
#1 = CIRCLE ( 'NONE', #113, 9.150000000000000355 ) ;
#2 = ADVANCED_FACE ( 'NONE', ( #100 ), #86, .F. ) ;
#3 = VERTEX_POINT ( 'NONE', #53 ) ;
#4 = AXIS2_PLACEMENT_3D ( 'NONE', #138, #92, #94 ) ;
#5 = CARTESIAN_POINT ( 'NONE',  ( -16.00000000000000000, 0.000000000000000000, 0.000000000000000000 ) ) ;
#6 = CIRCLE ( 'NONE', #198, 7.250000000000000000 ) ;
#7 = FACE_OUTER_BOUND ( 'NONE', #164, .T. ) ;
#8 = CYLINDRICAL_SURFACE ( 'NONE', #37, 9.150000000000000355 ) ;
#9 = CARTESIAN_POINT ( 'NONE',  ( -16.00000000000000000, 0.000000000000000000, 0.000000000000000000 ) ) ;
#10 = LINE ( 'NONE', #36, #136 ) ;
#11 = DIRECTION ( 'NONE',  ( -1.000000000000000000, -0.000000000000000000, -0.000000000000000000 ) ) ;
#12 =( NAMED_UNIT ( * ) PLANE_ANGLE_UNIT ( ) SI_UNIT ( $, .RADIAN. ) );
#13 = CARTESIAN_POINT ( 'NONE',  ( 16.00000000000000000, 0.000000000000000000, 0.000000000000000000 ) ) ;
#14 = EDGE_CURVE ( 'NONE', #129, #77, #106, .T. ) ;
#15 =( NAMED_UNIT ( * ) PLANE_ANGLE_UNIT ( ) SI_UNIT ( $, .RADIAN. ) );
#16 = ORIENTED_EDGE ( 'NONE', *, *, #104, .F. ) ;
#17 = AXIS2_PLACEMENT_3D ( 'NONE', #89, #73, #168 ) ;
#18 = EDGE_LOOP ( 'NONE', ( #30, #158 ) ) ;
#19 = EDGE_LOOP ( 'NONE', ( #111, #115, #59, #67 ) ) ;
#20 = CARTESIAN_POINT ( 'NONE',  ( -16.00000000000000000, 0.000000000000000000, 0.000000000000000000 ) ) ;
#21 = VERTEX_POINT ( 'NONE', #22 ) ;
#22 = CARTESIAN_POINT ( 'NONE',  ( -16.00000000000000000, 8.878689293818310074E-16, -7.250000000000000000 ) ) ;
#23 = CARTESIAN_POINT ( 'NONE',  ( 16.00000000000000000, 0.000000000000000000, 0.000000000000000000 ) ) ;
#24 = CARTESIAN_POINT ( 'NONE',  ( 16.00000000000000000, 0.000000000000000000, 7.250000000000000000 ) ) ;
#25 = CARTESIAN_POINT ( 'NONE',  ( 16.00000000000000000, 0.000000000000000000, 0.000000000000000000 ) ) ;
#26 = LINE ( 'NONE', #90, #75 ) ;
#27 =( GEOMETRIC_REPRESENTATION_CONTEXT ( 3 ) GLOBAL_UNCERTAINTY_ASSIGNED_CONTEXT ( ( #195 ) ) GLOBAL_UNIT_ASSIGNED_CONTEXT ( ( #152, #12, #132 ) ) REPRESENTATION_CONTEXT ( 'NONE', 'WORKASPACE' ) );
#28 = PRODUCT_DEFINITION ( 'UNKNOWN', '', #125, #157 ) ;
#29 = AXIS2_PLACEMENT_3D ( 'NONE', #143, #38, #66 ) ;
#30 = ORIENTED_EDGE ( 'NONE', *, *, #151, .T. ) ;
#31 = ORIENTED_EDGE ( 'NONE', *, *, #159, .F. ) ;
#32 = APPLICATION_CONTEXT ( 'automotive_design' ) ;
#33 = CARTESIAN_POINT ( 'NONE',  ( -16.00000000000000000, 0.000000000000000000, 9.150000000000000355 ) ) ;
#34 = EDGE_CURVE ( 'NONE', #190, #21, #189, .T. ) ;
#35 = ORIENTED_EDGE ( 'NONE', *, *, #34, .F. ) ;
#36 = CARTESIAN_POINT ( 'NONE',  ( -16.00000000000000000, 8.878689293818310074E-16, -7.250000000000000000 ) ) ;
#37 = AXIS2_PLACEMENT_3D ( 'NONE', #194, #149, #199 ) ;
#38 = DIRECTION ( 'NONE',  ( -1.000000000000000000, -0.000000000000000000, -0.000000000000000000 ) ) ;
#39 = ORIENTED_EDGE ( 'NONE', *, *, #139, .T. ) ;
#40 =( NAMED_UNIT ( * ) SI_UNIT ( $, .STERADIAN. ) SOLID_ANGLE_UNIT ( ) );
#41 = UNCERTAINTY_MEASURE_WITH_UNIT (LENGTH_MEASURE( 1.000000000000000082E-05 ), #110, 'distance_accuracy_value', 'NONE');
#42 = MECHANICAL_DESIGN_GEOMETRIC_PRESENTATION_REPRESENTATION (  '', ( #68 ), #97 ) ;
#43 = PRODUCT_CONTEXT ( 'NONE', #32, 'mechanical' ) ;
#44 = ADVANCED_FACE ( 'NONE', ( #85, #50 ), #124, .F. ) ;
#45 = ORIENTED_EDGE ( 'NONE', *, *, #52, .T. ) ;
#46 = CYLINDRICAL_SURFACE ( 'NONE', #188, 9.150000000000000355 ) ;
#47 = DIRECTION ( 'NONE',  ( -1.000000000000000000, -0.000000000000000000, -0.000000000000000000 ) ) ;
#48 = ORIENTED_EDGE ( 'NONE', *, *, #109, .F. ) ;
#49 = APPLICATION_CONTEXT ( 'automotive_design' ) ;
#50 = FACE_OUTER_BOUND ( 'NONE', #80, .T. ) ;
#51 = AXIS2_PLACEMENT_3D ( 'NONE', #91, #11, #184 ) ;
#52 = EDGE_CURVE ( 'NONE', #196, #190, #181, .T. ) ;
#53 = CARTESIAN_POINT ( 'NONE',  ( 16.00000000000000000, 0.000000000000000000, 9.150000000000000355 ) ) ;
#54 = FILL_AREA_STYLE_COLOUR ( '', #153 ) ;
#55 = DIRECTION ( 'NONE',  ( -1.000000000000000000, -0.000000000000000000, -0.000000000000000000 ) ) ;
#56 = AXIS2_PLACEMENT_3D ( 'NONE', #103, #147, #114 ) ;
#57 = CARTESIAN_POINT ( 'NONE',  ( -16.00000000000000000, 1.120551821219828341E-15, -9.150000000000000355 ) ) ;
#58 = CLOSED_SHELL ( 'NONE', ( #118, #71, #44, #2, #191, #126 ) ) ;
#59 = ORIENTED_EDGE ( 'NONE', *, *, #159, .T. ) ;
#60 = VECTOR ( 'NONE', #55, 1000.000000000000000 ) ;
#61 = ORIENTED_EDGE ( 'NONE', *, *, #78, .F. ) ;
#62 = PRODUCT_RELATED_PRODUCT_CATEGORY ( 'part', '', ( #64 ) ) ;
#63 = DIRECTION ( 'NONE',  ( 0.000000000000000000, 0.000000000000000000, 1.000000000000000000 ) ) ;
#64 = PRODUCT ( '2046522', '2046522', '', ( #43 ) ) ;
#65 = ORIENTED_EDGE ( 'NONE', *, *, #178, .F. ) ;
#66 = DIRECTION ( 'NONE',  ( 0.000000000000000000, 0.000000000000000000, 1.000000000000000000 ) ) ;
#67 = ORIENTED_EDGE ( 'NONE', *, *, #14, .F. ) ;
#68 = STYLED_ITEM ( 'NONE', ( #169 ), #140 ) ;
#69 = ORIENTED_EDGE ( 'NONE', *, *, #104, .T. ) ;
#70 = CARTESIAN_POINT ( 'NONE',  ( 16.00000000000000000, 1.120551821219828341E-15, -9.150000000000000355 ) ) ;
#71 = ADVANCED_FACE ( 'NONE', ( #144 ), #176, .F. ) ;
#72 = DIRECTION ( 'NONE',  ( 0.000000000000000000, 0.000000000000000000, 1.000000000000000000 ) ) ;
#73 = DIRECTION ( 'NONE',  ( -1.000000000000000000, 0.000000000000000000, -0.000000000000000000 ) ) ;
#74 = CARTESIAN_POINT ( 'NONE',  ( 16.00000000000000000, 8.878689293818310074E-16, -7.250000000000000000 ) ) ;
#75 = VECTOR ( 'NONE', #182, 1000.000000000000000 ) ;
#76 = ORIENTED_EDGE ( 'NONE', *, *, #139, .F. ) ;
#77 = VERTEX_POINT ( 'NONE', #33 ) ;
#78 = EDGE_CURVE ( 'NONE', #142, #196, #180, .T. ) ;
#79 = EDGE_LOOP ( 'NONE', ( #35, #76 ) ) ;
#80 = EDGE_LOOP ( 'NONE', ( #177, #156 ) ) ;
#81 = EDGE_LOOP ( 'NONE', ( #16, #160, #45, #141 ) ) ;
#82 = DIRECTION ( 'NONE',  ( 0.000000000000000000, 0.000000000000000000, 1.000000000000000000 ) ) ;
#83 = AXIS2_PLACEMENT_3D ( 'NONE', #23, #165, #161 ) ;
#84 = DIRECTION ( 'NONE',  ( -1.000000000000000000, -0.000000000000000000, -0.000000000000000000 ) ) ;
#85 = FACE_BOUND ( 'NONE', #79, .T. ) ;
#86 = CYLINDRICAL_SURFACE ( 'NONE', #29, 7.250000000000000000 ) ;
#87 = AXIS2_PLACEMENT_3D ( 'NONE', #13, #187, #88 ) ;
#88 = DIRECTION ( 'NONE',  ( 0.000000000000000000, 0.000000000000000000, 1.000000000000000000 ) ) ;
#89 = CARTESIAN_POINT ( 'NONE',  ( 16.00000000000000000, 9.150000000000000355, 0.000000000000000000 ) ) ;
#90 = CARTESIAN_POINT ( 'NONE',  ( -16.00000000000000000, 0.000000000000000000, 9.150000000000000355 ) ) ;
#91 = CARTESIAN_POINT ( 'NONE',  ( 16.00000000000000000, 0.000000000000000000, 0.000000000000000000 ) ) ;
#92 = DIRECTION ( 'NONE',  ( 0.000000000000000000, 0.000000000000000000, 1.000000000000000000 ) ) ;
#93 = PRODUCT_DEFINITION_SHAPE ( 'NONE', 'NONE',  #28 ) ;
#94 = DIRECTION ( 'NONE',  ( 1.000000000000000000, 0.000000000000000000, 0.000000000000000000 ) ) ;
#95 = AXIS2_PLACEMENT_3D ( 'NONE', #20, #130, #82 ) ;
#96 = APPLICATION_PROTOCOL_DEFINITION ( 'draft international standard', 'automotive_design', 1998, #49 ) ;
#97 =( GEOMETRIC_REPRESENTATION_CONTEXT ( 3 ) GLOBAL_UNCERTAINTY_ASSIGNED_CONTEXT ( ( #41 ) ) GLOBAL_UNIT_ASSIGNED_CONTEXT ( ( #110, #15, #40 ) ) REPRESENTATION_CONTEXT ( 'NONE', 'WORKASPACE' ) );
#98 = DIRECTION ( 'NONE',  ( -1.000000000000000000, -0.000000000000000000, -0.000000000000000000 ) ) ;
#99 = DIRECTION ( 'NONE',  ( -1.000000000000000000, -0.000000000000000000, -0.000000000000000000 ) ) ;
#100 = FACE_OUTER_BOUND ( 'NONE', #81, .T. ) ;
#101 = CIRCLE ( 'NONE', #95, 9.150000000000000355 ) ;
#102 = DIRECTION ( 'NONE',  ( -1.000000000000000000, -0.000000000000000000, -0.000000000000000000 ) ) ;
#103 = CARTESIAN_POINT ( 'NONE',  ( -16.00000000000000000, 9.150000000000000355, 0.000000000000000000 ) ) ;
#104 = EDGE_CURVE ( 'NONE', #142, #21, #10, .T. ) ;
#105 = LINE ( 'NONE', #131, #60 ) ;
#106 = CIRCLE ( 'NONE', #163, 9.150000000000000355 ) ;
#107 = SURFACE_STYLE_USAGE ( .BOTH. , #119 ) ;
#108 = DIRECTION ( 'NONE',  ( -1.000000000000000000, -0.000000000000000000, -0.000000000000000000 ) ) ;
#109 = EDGE_CURVE ( 'NONE', #77, #129, #101, .T. ) ;
#110 =( LENGTH_UNIT ( ) NAMED_UNIT ( * ) SI_UNIT ( .MILLI., .METRE. ) );
#111 = ORIENTED_EDGE ( 'NONE', *, *, #183, .F. ) ;
#112 = EDGE_LOOP ( 'NONE', ( #123, #65 ) ) ;
#113 = AXIS2_PLACEMENT_3D ( 'NONE', #25, #170, #72 ) ;
#114 = DIRECTION ( 'NONE',  ( 0.000000000000000000, 0.000000000000000000, -1.000000000000000000 ) ) ;
#115 = ORIENTED_EDGE ( 'NONE', *, *, #178, .T. ) ;
#116 = ORIENTED_EDGE ( 'NONE', *, *, #183, .T. ) ;
#117 = DIRECTION ( 'NONE',  ( 0.000000000000000000, 0.000000000000000000, 1.000000000000000000 ) ) ;
#118 = ADVANCED_FACE ( 'NONE', ( #7 ), #46, .T. ) ;
#119 = SURFACE_SIDE_STYLE ('',( #186 ) ) ;
#120 = FILL_AREA_STYLE ('',( #54 ) ) ;
#121 = DIRECTION ( 'NONE',  ( 0.000000000000000000, 0.000000000000000000, 1.000000000000000000 ) ) ;
#122 = CIRCLE ( 'NONE', #87, 9.150000000000000355 ) ;
#123 = ORIENTED_EDGE ( 'NONE', *, *, #173, .F. ) ;
#124 = PLANE ( 'NONE',  #56 ) ;
#125 = PRODUCT_DEFINITION_FORMATION_WITH_SPECIFIED_SOURCE ( 'ANY', '', #64, .NOT_KNOWN. ) ;
#126 = ADVANCED_FACE ( 'NONE', ( #146 ), #8, .T. ) ;
#127 = CARTESIAN_POINT ( 'NONE',  ( -16.00000000000000000, 0.000000000000000000, 0.000000000000000000 ) ) ;
#128 = DIRECTION ( 'NONE',  ( 0.000000000000000000, 0.000000000000000000, 1.000000000000000000 ) ) ;
#129 = VERTEX_POINT ( 'NONE', #57 ) ;
#130 = DIRECTION ( 'NONE',  ( -1.000000000000000000, -0.000000000000000000, -0.000000000000000000 ) ) ;
#131 = CARTESIAN_POINT ( 'NONE',  ( -16.00000000000000000, 1.120551821219828341E-15, -9.150000000000000355 ) ) ;
#132 =( NAMED_UNIT ( * ) SI_UNIT ( $, .STERADIAN. ) SOLID_ANGLE_UNIT ( ) );
#133 = AXIS2_PLACEMENT_3D ( 'NONE', #192, #99, #117 ) ;
#134 = CARTESIAN_POINT ( 'NONE',  ( -16.00000000000000000, 0.000000000000000000, 7.250000000000000000 ) ) ;
#135 = FACE_BOUND ( 'NONE', #18, .T. ) ;
#136 = VECTOR ( 'NONE', #98, 1000.000000000000000 ) ;
#137 = EDGE_LOOP ( 'NONE', ( #61, #69, #39, #172 ) ) ;
#138 = CARTESIAN_POINT ( 'NONE',  ( 0.000000000000000000, 0.000000000000000000, 0.000000000000000000 ) ) ;
#139 = EDGE_CURVE ( 'NONE', #21, #190, #6, .T. ) ;
#140 = MANIFOLD_SOLID_BREP ( 'Rotation1', #58 ) ;
#141 = ORIENTED_EDGE ( 'NONE', *, *, #34, .T. ) ;
#142 = VERTEX_POINT ( 'NONE', #74 ) ;
#143 = CARTESIAN_POINT ( 'NONE',  ( -16.00000000000000000, 0.000000000000000000, 0.000000000000000000 ) ) ;
#144 = FACE_OUTER_BOUND ( 'NONE', #137, .T. ) ;
#145 = VECTOR ( 'NONE', #47, 1000.000000000000000 ) ;
#146 = FACE_OUTER_BOUND ( 'NONE', #19, .T. ) ;
#147 = DIRECTION ( 'NONE',  ( 1.000000000000000000, 0.000000000000000000, 0.000000000000000000 ) ) ;
#148 = DIRECTION ( 'NONE',  ( 0.000000000000000000, 0.000000000000000000, 1.000000000000000000 ) ) ;
#149 = DIRECTION ( 'NONE',  ( -1.000000000000000000, -0.000000000000000000, -0.000000000000000000 ) ) ;
#150 = PLANE ( 'NONE',  #17 ) ;
#151 = EDGE_CURVE ( 'NONE', #196, #142, #174, .T. ) ;
#152 =( LENGTH_UNIT ( ) NAMED_UNIT ( * ) SI_UNIT ( .MILLI., .METRE. ) );
#153 = COLOUR_RGB ( '',0.7921568627450980005, 0.8196078431372548767, 0.9333333333333333481 ) ;
#154 = PRESENTATION_LAYER_ASSIGNMENT (  '', '', ( #68 ) ) ;
#155 = ADVANCED_BREP_SHAPE_REPRESENTATION ( '2046522', ( #140, #4 ), #27 ) ;
#156 = ORIENTED_EDGE ( 'NONE', *, *, #14, .T. ) ;
#157 = PRODUCT_DEFINITION_CONTEXT ( 'detailed design', #49, 'design' ) ;
#158 = ORIENTED_EDGE ( 'NONE', *, *, #78, .T. ) ;
#159 = EDGE_CURVE ( 'NONE', #3, #77, #26, .T. ) ;
#160 = ORIENTED_EDGE ( 'NONE', *, *, #151, .F. ) ;
#161 = DIRECTION ( 'NONE',  ( 0.000000000000000000, 0.000000000000000000, 1.000000000000000000 ) ) ;
#162 = DIRECTION ( 'NONE',  ( -1.000000000000000000, -0.000000000000000000, -0.000000000000000000 ) ) ;
#163 = AXIS2_PLACEMENT_3D ( 'NONE', #5, #102, #63 ) ;
#164 = EDGE_LOOP ( 'NONE', ( #179, #116, #48, #31 ) ) ;
#165 = DIRECTION ( 'NONE',  ( -1.000000000000000000, -0.000000000000000000, -0.000000000000000000 ) ) ;
#166 = FACE_OUTER_BOUND ( 'NONE', #112, .T. ) ;
#167 = AXIS2_PLACEMENT_3D ( 'NONE', #9, #84, #148 ) ;
#168 = DIRECTION ( 'NONE',  ( -0.000000000000000000, 0.000000000000000000, 1.000000000000000000 ) ) ;
#169 = PRESENTATION_STYLE_ASSIGNMENT (( #107 ) ) ;
#170 = DIRECTION ( 'NONE',  ( -1.000000000000000000, -0.000000000000000000, -0.000000000000000000 ) ) ;
#171 = SHAPE_DEFINITION_REPRESENTATION ( #93, #155 ) ;
#172 = ORIENTED_EDGE ( 'NONE', *, *, #52, .F. ) ;
#173 = EDGE_CURVE ( 'NONE', #3, #175, #122, .T. ) ;
#174 = CIRCLE ( 'NONE', #51, 7.250000000000000000 ) ;
#175 = VERTEX_POINT ( 'NONE', #70 ) ;
#176 = CYLINDRICAL_SURFACE ( 'NONE', #167, 7.250000000000000000 ) ;
#177 = ORIENTED_EDGE ( 'NONE', *, *, #109, .T. ) ;
#178 = EDGE_CURVE ( 'NONE', #175, #3, #1, .T. ) ;
#179 = ORIENTED_EDGE ( 'NONE', *, *, #173, .T. ) ;
#180 = CIRCLE ( 'NONE', #83, 7.250000000000000000 ) ;
#181 = LINE ( 'NONE', #193, #145 ) ;
#182 = DIRECTION ( 'NONE',  ( -1.000000000000000000, -0.000000000000000000, -0.000000000000000000 ) ) ;
#183 = EDGE_CURVE ( 'NONE', #175, #129, #105, .T. ) ;
#184 = DIRECTION ( 'NONE',  ( 0.000000000000000000, 0.000000000000000000, 1.000000000000000000 ) ) ;
#185 = CARTESIAN_POINT ( 'NONE',  ( -16.00000000000000000, 0.000000000000000000, 0.000000000000000000 ) ) ;
#186 = SURFACE_STYLE_FILL_AREA ( #120 ) ;
#187 = DIRECTION ( 'NONE',  ( -1.000000000000000000, -0.000000000000000000, -0.000000000000000000 ) ) ;
#188 = AXIS2_PLACEMENT_3D ( 'NONE', #127, #162, #128 ) ;
#189 = CIRCLE ( 'NONE', #133, 7.250000000000000000 ) ;
#190 = VERTEX_POINT ( 'NONE', #134 ) ;
#191 = ADVANCED_FACE ( 'NONE', ( #166, #135 ), #150, .F. ) ;
#192 = CARTESIAN_POINT ( 'NONE',  ( -16.00000000000000000, 0.000000000000000000, 0.000000000000000000 ) ) ;
#193 = CARTESIAN_POINT ( 'NONE',  ( -16.00000000000000000, 0.000000000000000000, 7.250000000000000000 ) ) ;
#194 = CARTESIAN_POINT ( 'NONE',  ( -16.00000000000000000, 0.000000000000000000, 0.000000000000000000 ) ) ;
#195 = UNCERTAINTY_MEASURE_WITH_UNIT (LENGTH_MEASURE( 1.000000000000000082E-05 ), #152, 'distance_accuracy_value', 'NONE');
#196 = VERTEX_POINT ( 'NONE', #24 ) ;
#197 = APPLICATION_PROTOCOL_DEFINITION ( 'draft international standard', 'automotive_design', 1998, #32 ) ;
#198 = AXIS2_PLACEMENT_3D ( 'NONE', #185, #108, #121 ) ;
#199 = DIRECTION ( 'NONE',  ( 0.000000000000000000, 0.000000000000000000, 1.000000000000000000 ) ) ;
ENDSEC;
END-ISO-10303-21;
